ISO-10303-21;
HEADER;
FILE_DESCRIPTION (( 'STEP AP203' ),
    '1' );
FILE_NAME ('QB-CTZQWP-12.7-1550-M.STEP',
    '2020-12-24T01:49:14',
    ( '' ),
    ( '' ),
    'SwSTEP 2.0',
    'SolidWorks 2020',
    '' );
FILE_SCHEMA (( 'CONFIG_CONTROL_DESIGN' ));
ENDSEC;

DATA;
#1 = AXIS2_PLACEMENT_3D ( 'NONE', #82, #130, #189 ) ;
#2 = VECTOR ( 'NONE', #98, 1000.000000000000000 ) ;
#3 = FACE_OUTER_BOUND ( 'NONE', #104, .T. ) ;
#4 = COORDINATED_UNIVERSAL_TIME_OFFSET ( 8, 0, .AHEAD. ) ;
#5 = CARTESIAN_POINT ( 'NONE',  ( 3.000000000000000000, 1.555301434917138433E-15, -12.69999999999999929 ) ) ;
#6 = EDGE_CURVE ( 'NONE', #254, #41, #272, .T. ) ;
#7 = ADVANCED_FACE ( 'NONE', ( #304 ), #328, .F. ) ;
#8 = CARTESIAN_POINT ( 'NONE',  ( 0.000000000000000000, 0.000000000000000000, 0.000000000000000000 ) ) ;
#9 = VECTOR ( 'NONE', #227, 1000.000000000000000 ) ;
#10 = CARTESIAN_POINT ( 'NONE',  ( -3.000000000000000000, 0.000000000000000000, 12.69999999999999929 ) ) ;
#11 = ORIENTED_EDGE ( 'NONE', *, *, #48, .T. ) ;
#12 = CARTESIAN_POINT ( 'NONE',  ( -1.614212418857619014, 0.000000000000000000, 6.349999999999999645 ) ) ;
#13 = VECTOR ( 'NONE', #301, 1000.000000000000000 ) ;
#14 = ORIENTED_EDGE ( 'NONE', *, *, #146, .F. ) ;
#15 = DIRECTION ( 'NONE',  ( -1.000000000000000000, -0.000000000000000000, -0.000000000000000000 ) ) ;
#16 = DIRECTION ( 'NONE',  ( -1.000000000000000000, -0.000000000000000000, -0.000000000000000000 ) ) ;
#17 = ORIENTED_EDGE ( 'NONE', *, *, #72, .F. ) ;
#18 = PRODUCT_DEFINITION ( 'UNKNOWN', '', #223, #285 ) ;
#19 = AXIS2_PLACEMENT_3D ( 'NONE', #259, #131, #231 ) ;
#20 = DIRECTION ( 'NONE',  ( 0.000000000000000000, 0.000000000000000000, 1.000000000000000000 ) ) ;
#21 = CIRCLE ( 'NONE', #86, 12.69999999999999929 ) ;
#22 = CC_DESIGN_DATE_AND_TIME_ASSIGNMENT ( #135, #26, ( #138 ) ) ;
#23 = LOCAL_TIME ( 9, 49, 14.00000000000000000, #257 ) ;
#24 = CARTESIAN_POINT ( 'NONE',  ( -1.500000000000000444, 0.000000000000000000, 6.349999999999999645 ) ) ;
#25 = CYLINDRICAL_SURFACE ( 'NONE', #268, 6.349999999999999645 ) ;
#26 = DATE_TIME_ROLE ( 'classification_date' ) ;
#27 = DIRECTION ( 'NONE',  ( 0.000000000000000000, 0.000000000000000000, -1.000000000000000000 ) ) ;
#28 = PERSON_AND_ORGANIZATION ( #92, #127 ) ;
#29 = CC_DESIGN_APPROVAL ( #297, ( #18 ) ) ;
#30 = DIRECTION ( 'NONE',  ( -1.000000000000000000, -0.000000000000000000, -0.000000000000000000 ) ) ;
#31 = COORDINATED_UNIVERSAL_TIME_OFFSET ( 8, 0, .AHEAD. ) ;
#32 = DIRECTION ( 'NONE',  ( 0.000000000000000000, 0.000000000000000000, 1.000000000000000000 ) ) ;
#33 = ADVANCED_BREP_SHAPE_REPRESENTATION ( 'QB-CTZQWP-12.7-1550-M', ( #80, #60 ), #194 ) ;
#34 = DIRECTION ( 'NONE',  ( -1.000000000000000000, -0.000000000000000000, -0.000000000000000000 ) ) ;
#35 = EDGE_LOOP ( 'NONE', ( #67, #151 ) ) ;
#36 = APPLICATION_PROTOCOL_DEFINITION ( 'international standard', 'config_control_design', 1994, #222 ) ;
#37 = ADVANCED_FACE ( 'NONE', ( #244 ), #91, .F. ) ;
#38 =( NAMED_UNIT ( * ) SI_UNIT ( $, .STERADIAN. ) SOLID_ANGLE_UNIT ( ) );
#39 = DIRECTION ( 'NONE',  ( -1.000000000000000000, -0.000000000000000000, -0.000000000000000000 ) ) ;
#40 = ADVANCED_FACE ( 'NONE', ( #331 ), #323, .T. ) ;
#41 = VERTEX_POINT ( 'NONE', #10 ) ;
#42 = ORIENTED_EDGE ( 'NONE', *, *, #169, .F. ) ;
#43 = ORIENTED_EDGE ( 'NONE', *, *, #83, .F. ) ;
#44 = AXIS2_PLACEMENT_3D ( 'NONE', #87, #34, #296 ) ;
#45 = ORIENTED_EDGE ( 'NONE', *, *, #146, .T. ) ;
#46 = CARTESIAN_POINT ( 'NONE',  ( 1.500000000000000888, 0.000000000000000000, 6.349999999999999645 ) ) ;
#47 = ORIENTED_EDGE ( 'NONE', *, *, #193, .F. ) ;
#48 = EDGE_CURVE ( 'NONE', #303, #100, #118, .T. ) ;
#49 = DIRECTION ( 'NONE',  ( 0.000000000000000000, 0.000000000000000000, 1.000000000000000000 ) ) ;
#50 = VERTEX_POINT ( 'NONE', #201 ) ;
#51 = DIRECTION ( 'NONE',  ( -1.000000000000000000, -0.000000000000000000, -0.000000000000000000 ) ) ;
#52 = DIRECTION ( 'NONE',  ( -1.000000000000000000, -0.000000000000000000, -0.000000000000000000 ) ) ;
#53 = DIRECTION ( 'NONE',  ( -1.000000000000000000, -0.000000000000000000, -0.000000000000000000 ) ) ;
#54 = VECTOR ( 'NONE', #51, 1000.000000000000000 ) ;
#55 = APPLICATION_CONTEXT ( 'configuration controlled 3d designs of mechanical parts and assemblies' ) ;
#56 = FACE_OUTER_BOUND ( 'NONE', #219, .T. ) ;
#57 = APPROVAL_STATUS ( 'not_yet_approved' ) ;
#58 = DIRECTION ( 'NONE',  ( -0.000000000000000000, 0.000000000000000000, 1.000000000000000000 ) ) ;
#59 = PERSON_AND_ORGANIZATION ( #92, #127 ) ;
#60 = AXIS2_PLACEMENT_3D ( 'NONE', #8, #142, #243 ) ;
#61 = CIRCLE ( 'NONE', #240, 6.349999999999999645 ) ;
#62 = EDGE_CURVE ( 'NONE', #50, #100, #116, .T. ) ;
#63 = PLANE ( 'NONE',  #174 ) ;
#64 = PERSON_AND_ORGANIZATION ( #92, #127 ) ;
#65 = APPROVAL ( #308, 'UNSPECIFIED' ) ;
#66 = APPROVAL_ROLE ( '' ) ;
#67 = ORIENTED_EDGE ( 'NONE', *, *, #136, .F. ) ;
#68 = DIRECTION ( 'NONE',  ( 1.000000000000000000, 0.000000000000000000, 0.000000000000000000 ) ) ;
#69 = ORIENTED_EDGE ( 'NONE', *, *, #317, .F. ) ;
#70 = DIRECTION ( 'NONE',  ( 0.000000000000000000, 0.000000000000000000, 1.000000000000000000 ) ) ;
#71 = ORIENTED_EDGE ( 'NONE', *, *, #157, .T. ) ;
#72 = EDGE_CURVE ( 'NONE', #121, #216, #120, .T. ) ;
#73 = CARTESIAN_POINT ( 'NONE',  ( -3.000000000000000000, 0.000000000000000000, 0.000000000000000000 ) ) ;
#74 = PRODUCT ( 'QB-CTZQWP-12.7-1550-M', 'QB-CTZQWP-12.7-1550-M', '', ( #294 ) ) ;
#75 = ORIENTED_EDGE ( 'NONE', *, *, #289, .T. ) ;
#76 = CARTESIAN_POINT ( 'NONE',  ( -2.999999999999999556, 0.000000000000000000, 0.000000000000000000 ) ) ;
#77 = CARTESIAN_POINT ( 'NONE',  ( -3.000000000000000000, 0.000000000000000000, 0.000000000000000000 ) ) ;
#78 = PERSON_AND_ORGANIZATION ( #92, #127 ) ;
#79 = DIRECTION ( 'NONE',  ( 0.000000000000000000, 0.000000000000000000, 1.000000000000000000 ) ) ;
#80 = MANIFOLD_SOLID_BREP ( 'Ðý×', #295 ) ;
#81 = DIRECTION ( 'NONE',  ( 0.000000000000000000, 0.000000000000000000, 1.000000000000000000 ) ) ;
#82 = CARTESIAN_POINT ( 'NONE',  ( -2.999999999999999556, 0.000000000000000000, 0.000000000000000000 ) ) ;
#83 = EDGE_CURVE ( 'NONE', #216, #41, #183, .T. ) ;
#84 = CALENDAR_DATE ( 2020, 24, 12 ) ;
#85 = AXIS2_PLACEMENT_3D ( 'NONE', #76, #300, #203 ) ;
#86 = AXIS2_PLACEMENT_3D ( 'NONE', #160, #30, #134 ) ;
#87 = CARTESIAN_POINT ( 'NONE',  ( -1.614212418857619014, 0.000000000000000000, 0.000000000000000000 ) ) ;
#88 = ADVANCED_FACE ( 'NONE', ( #255, #213 ), #187, .F. ) ;
#89 = ORIENTED_EDGE ( 'NONE', *, *, #62, .T. ) ;
#90 = CIRCLE ( 'NONE', #312, 6.349999999999999645 ) ;
#91 = PLANE ( 'NONE',  #248 ) ;
#92 = PERSON ( 'UNSPECIFIED', 'UNSPECIFIED', 'UNSPECIFIED', ('UNSPECIFIED'), ('UNSPECIFIED'), ('UNSPECIFIED') ) ;
#93 = CARTESIAN_POINT ( 'NONE',  ( 1.500000000000000888, 7.776507174585692163E-16, -6.349999999999999645 ) ) ;
#94 = EDGE_LOOP ( 'NONE', ( #124, #125 ) ) ;
#95 = EDGE_CURVE ( 'NONE', #250, #224, #112, .T. ) ;
#96 = CARTESIAN_POINT ( 'NONE',  ( -1.614212418857619014, 1.555301434917138433E-15, -12.69999999999999929 ) ) ;
#97 = ORIENTED_EDGE ( 'NONE', *, *, #289, .F. ) ;
#98 = DIRECTION ( 'NONE',  ( -1.000000000000000000, -0.000000000000000000, -0.000000000000000000 ) ) ;
#99 = DIRECTION ( 'NONE',  ( -1.000000000000000000, 0.000000000000000000, -0.000000000000000000 ) ) ;
#100 = VERTEX_POINT ( 'NONE', #307 ) ;
#101 = DIRECTION ( 'NONE',  ( 0.000000000000000000, 0.000000000000000000, 1.000000000000000000 ) ) ;
#102 = PRODUCT_DEFINITION_SHAPE ( 'NONE', 'NONE',  #18 ) ;
#103 = EDGE_LOOP ( 'NONE', ( #228, #238, #11, #279 ) ) ;
#104 = EDGE_LOOP ( 'NONE', ( #45, #75, #197, #43 ) ) ;
#105 = CIRCLE ( 'NONE', #293, 6.349999999999999645 ) ;
#106 = CARTESIAN_POINT ( 'NONE',  ( -1.614212418857619014, 0.000000000000000000, 0.000000000000000000 ) ) ;
#107 = CALENDAR_DATE ( 2020, 24, 12 ) ;
#108 = CARTESIAN_POINT ( 'NONE',  ( 3.000000000000000888, 0.000000000000000000, 0.000000000000000000 ) ) ;
#109 = APPROVAL_DATE_TIME ( #111, #65 ) ;
#110 = CARTESIAN_POINT ( 'NONE',  ( -1.614212418857619014, 0.000000000000000000, 6.349999999999999645 ) ) ;
#111 = DATE_AND_TIME ( #107, #245 ) ;
#112 = LINE ( 'NONE', #110, #150 ) ;
#113 = PERSON_AND_ORGANIZATION ( #92, #127 ) ;
#114 = CARTESIAN_POINT ( 'NONE',  ( 3.000000000000000888, 7.776507174585692163E-16, -6.349999999999999645 ) ) ;
#115 = ORIENTED_EDGE ( 'NONE', *, *, #6, .F. ) ;
#116 = CIRCLE ( 'NONE', #85, 6.349999999999999645 ) ;
#117 = ADVANCED_FACE ( 'NONE', ( #164 ), #25, .F. ) ;
#118 = LINE ( 'NONE', #12, #2 ) ;
#119 = AXIS2_PLACEMENT_3D ( 'NONE', #108, #16, #70 ) ;
#120 = CIRCLE ( 'NONE', #199, 12.69999999999999929 ) ;
#121 = VERTEX_POINT ( 'NONE', #5 ) ;
#122 = CARTESIAN_POINT ( 'NONE',  ( 3.000000000000000000, 0.000000000000000000, 0.000000000000000000 ) ) ;
#123 = CARTESIAN_POINT ( 'NONE',  ( 3.000000000000000888, 0.000000000000000000, 6.349999999999999645 ) ) ;
#124 = ORIENTED_EDGE ( 'NONE', *, *, #286, .T. ) ;
#125 = ORIENTED_EDGE ( 'NONE', *, *, #6, .T. ) ;
#126 = FACE_BOUND ( 'NONE', #200, .T. ) ;
#127 = ORGANIZATION ( 'UNSPECIFIED', 'UNSPECIFIED', '' ) ;
#128 = CIRCLE ( 'NONE', #170, 12.69999999999999929 ) ;
#129 = CYLINDRICAL_SURFACE ( 'NONE', #314, 6.349999999999999645 ) ;
#130 = DIRECTION ( 'NONE',  ( -1.000000000000000000, -0.000000000000000000, -0.000000000000000000 ) ) ;
#131 = DIRECTION ( 'NONE',  ( -1.000000000000000000, -0.000000000000000000, -0.000000000000000000 ) ) ;
#132 = CALENDAR_DATE ( 2020, 24, 12 ) ;
#133 = CIRCLE ( 'NONE', #1, 6.349999999999999645 ) ;
#134 = DIRECTION ( 'NONE',  ( 0.000000000000000000, 0.000000000000000000, 1.000000000000000000 ) ) ;
#135 = DATE_AND_TIME ( #132, #158 ) ;
#136 = EDGE_CURVE ( 'NONE', #100, #50, #133, .T. ) ;
#137 = DIRECTION ( 'NONE',  ( 1.000000000000000000, 0.000000000000000000, 0.000000000000000000 ) ) ;
#138 = SECURITY_CLASSIFICATION ( '', '', #262 ) ;
#139 = ORIENTED_EDGE ( 'NONE', *, *, #242, .T. ) ;
#140 = APPROVAL_STATUS ( 'not_yet_approved' ) ;
#141 = CARTESIAN_POINT ( 'NONE',  ( -1.500000000000000444, 0.000000000000000000, 0.000000000000000000 ) ) ;
#142 = DIRECTION ( 'NONE',  ( 0.000000000000000000, 0.000000000000000000, 1.000000000000000000 ) ) ;
#143 = CYLINDRICAL_SURFACE ( 'NONE', #44, 6.349999999999999645 ) ;
#144 = CARTESIAN_POINT ( 'NONE',  ( -1.614212418857619014, 0.000000000000000000, 0.000000000000000000 ) ) ;
#145 = APPROVAL_PERSON_ORGANIZATION ( #292, #65, #212 ) ;
#146 = EDGE_CURVE ( 'NONE', #216, #121, #21, .T. ) ;
#147 = PLANE ( 'NONE',  #309 ) ;
#148 = ORIENTED_EDGE ( 'NONE', *, *, #83, .T. ) ;
#149 = DIRECTION ( 'NONE',  ( -1.000000000000000000, -0.000000000000000000, -0.000000000000000000 ) ) ;
#150 = VECTOR ( 'NONE', #256, 1000.000000000000000 ) ;
#151 = ORIENTED_EDGE ( 'NONE', *, *, #62, .F. ) ;
#152 = FACE_OUTER_BOUND ( 'NONE', #319, .T. ) ;
#153 = ORIENTED_EDGE ( 'NONE', *, *, #317, .T. ) ;
#154 = ADVANCED_FACE ( 'NONE', ( #56 ), #63, .F. ) ;
#155 = LINE ( 'NONE', #178, #13 ) ;
#156 = ORIENTED_EDGE ( 'NONE', *, *, #241, .T. ) ;
#157 = EDGE_CURVE ( 'NONE', #224, #247, #249, .T. ) ;
#158 = LOCAL_TIME ( 9, 49, 14.00000000000000000, #282 ) ;
#159 = LOCAL_TIME ( 9, 49, 14.00000000000000000, #31 ) ;
#160 = CARTESIAN_POINT ( 'NONE',  ( 3.000000000000000000, 0.000000000000000000, 0.000000000000000000 ) ) ;
#161 = CARTESIAN_POINT ( 'NONE',  ( -1.500000000000000444, 7.776507174585692163E-16, -6.349999999999999645 ) ) ;
#162 = ADVANCED_FACE ( 'NONE', ( #3 ), #333, .T. ) ;
#163 = CARTESIAN_POINT ( 'NONE',  ( -1.614212418857619014, 0.000000000000000000, 0.000000000000000000 ) ) ;
#164 = FACE_OUTER_BOUND ( 'NONE', #176, .T. ) ;
#165 = PERSON_AND_ORGANIZATION_ROLE ( 'design_supplier' ) ;
#166 = CC_DESIGN_PERSON_AND_ORGANIZATION_ASSIGNMENT ( #59, #165, ( #223 ) ) ;
#167 = DIRECTION ( 'NONE',  ( -1.000000000000000000, -0.000000000000000000, -0.000000000000000000 ) ) ;
#168 = DIRECTION ( 'NONE',  ( -1.000000000000000000, -0.000000000000000000, -0.000000000000000000 ) ) ;
#169 = EDGE_CURVE ( 'NONE', #247, #224, #90, .T. ) ;
#170 = AXIS2_PLACEMENT_3D ( 'NONE', #73, #324, #20 ) ;
#171 = EDGE_CURVE ( 'NONE', #299, #303, #61, .T. ) ;
#172 =( LENGTH_UNIT ( ) NAMED_UNIT ( * ) SI_UNIT ( .MILLI., .METRE. ) );
#173 = CIRCLE ( 'NONE', #19, 6.349999999999999645 ) ;
#174 = AXIS2_PLACEMENT_3D ( 'NONE', #184, #233, #58 ) ;
#175 = CARTESIAN_POINT ( 'NONE',  ( 3.000000000000000000, 12.69999999999999929, 0.000000000000000000 ) ) ;
#176 = EDGE_LOOP ( 'NONE', ( #153, #156, #89, #277 ) ) ;
#177 = ORIENTED_EDGE ( 'NONE', *, *, #242, .F. ) ;
#178 = CARTESIAN_POINT ( 'NONE',  ( -1.614212418857619014, 7.776507174585692163E-16, -6.349999999999999645 ) ) ;
#179 = ORIENTED_EDGE ( 'NONE', *, *, #171, .F. ) ;
#180 = CARTESIAN_POINT ( 'NONE',  ( -1.614212418857619014, 7.776507174585692163E-16, -6.349999999999999645 ) ) ;
#181 = ORIENTED_EDGE ( 'NONE', *, *, #169, .T. ) ;
#182 = CC_DESIGN_DATE_AND_TIME_ASSIGNMENT ( #335, #284, ( #18 ) ) ;
#183 = LINE ( 'NONE', #280, #54 ) ;
#184 = CARTESIAN_POINT ( 'NONE',  ( 1.500000000000000444, 6.349999999999999645, 0.000000000000000000 ) ) ;
#185 = CALENDAR_DATE ( 2020, 24, 12 ) ;
#186 = CARTESIAN_POINT ( 'NONE',  ( 1.500000000000000888, 0.000000000000000000, 0.000000000000000000 ) ) ;
#187 = PLANE ( 'NONE',  #205 ) ;
#188 = PERSON_AND_ORGANIZATION_ROLE ( 'creator' ) ;
#189 = DIRECTION ( 'NONE',  ( 0.000000000000000000, 0.000000000000000000, 1.000000000000000000 ) ) ;
#190 = PERSON_AND_ORGANIZATION_ROLE ( 'classification_officer' ) ;
#191 = EDGE_CURVE ( 'NONE', #250, #327, #173, .T. ) ;
#192 = APPROVAL_DATE_TIME ( #235, #297 ) ;
#193 = EDGE_CURVE ( 'NONE', #327, #250, #204, .T. ) ;
#194 =( GEOMETRIC_REPRESENTATION_CONTEXT ( 3 ) GLOBAL_UNCERTAINTY_ASSIGNED_CONTEXT ( ( #258 ) ) GLOBAL_UNIT_ASSIGNED_CONTEXT ( ( #172, #271, #38 ) ) REPRESENTATION_CONTEXT ( 'NONE', 'WORKASPACE' ) );
#195 = PRODUCT_RELATED_PRODUCT_CATEGORY ( 'detail', '', ( #74 ) ) ;
#196 = PERSON_AND_ORGANIZATION ( #92, #127 ) ;
#197 = ORIENTED_EDGE ( 'NONE', *, *, #286, .F. ) ;
#198 = CC_DESIGN_APPROVAL ( #65, ( #223 ) ) ;
#199 = AXIS2_PLACEMENT_3D ( 'NONE', #122, #220, #321 ) ;
#200 = EDGE_LOOP ( 'NONE', ( #252, #202 ) ) ;
#201 = CARTESIAN_POINT ( 'NONE',  ( -2.999999999999999556, 7.776507174585692163E-16, -6.349999999999999645 ) ) ;
#202 = ORIENTED_EDGE ( 'NONE', *, *, #193, .T. ) ;
#203 = DIRECTION ( 'NONE',  ( 0.000000000000000000, 0.000000000000000000, 1.000000000000000000 ) ) ;
#204 = CIRCLE ( 'NONE', #119, 6.349999999999999645 ) ;
#205 = AXIS2_PLACEMENT_3D ( 'NONE', #265, #137, #234 ) ;
#206 = EDGE_LOOP ( 'NONE', ( #69, #179 ) ) ;
#207 = DIRECTION ( 'NONE',  ( -0.000000000000000000, 0.000000000000000000, 1.000000000000000000 ) ) ;
#208 = CARTESIAN_POINT ( 'NONE',  ( -1.500000000000000444, 6.349999999999999645, 0.000000000000000000 ) ) ;
#209 = DIRECTION ( 'NONE',  ( -1.000000000000000000, -0.000000000000000000, -0.000000000000000000 ) ) ;
#210 = APPROVAL_DATE_TIME ( #214, #310 ) ;
#211 = CARTESIAN_POINT ( 'NONE',  ( -1.614212418857619014, 0.000000000000000000, 0.000000000000000000 ) ) ;
#212 = APPROVAL_ROLE ( '' ) ;
#213 = FACE_OUTER_BOUND ( 'NONE', #94, .T. ) ;
#214 = DATE_AND_TIME ( #311, #159 ) ;
#215 = SHAPE_DEFINITION_REPRESENTATION ( #102, #33 ) ;
#216 = VERTEX_POINT ( 'NONE', #320 ) ;
#217 = CC_DESIGN_PERSON_AND_ORGANIZATION_ASSIGNMENT ( #78, #190, ( #138 ) ) ;
#218 = ADVANCED_FACE ( 'NONE', ( #152, #126 ), #147, .F. ) ;
#219 = EDGE_LOOP ( 'NONE', ( #275, #42 ) ) ;
#220 = DIRECTION ( 'NONE',  ( -1.000000000000000000, -0.000000000000000000, -0.000000000000000000 ) ) ;
#221 = AXIS2_PLACEMENT_3D ( 'NONE', #77, #15, #276 ) ;
#222 = APPLICATION_CONTEXT ( 'configuration controlled 3d designs of mechanical parts and assemblies' ) ;
#223 = PRODUCT_DEFINITION_FORMATION_WITH_SPECIFIED_SOURCE ( 'ANY', '', #74, .NOT_KNOWN. ) ;
#224 = VERTEX_POINT ( 'NONE', #46 ) ;
#225 = EDGE_LOOP ( 'NONE', ( #97, #322, #148, #115 ) ) ;
#226 = ORIENTED_EDGE ( 'NONE', *, *, #95, .F. ) ;
#227 = DIRECTION ( 'NONE',  ( -1.000000000000000000, -0.000000000000000000, -0.000000000000000000 ) ) ;
#228 = ORIENTED_EDGE ( 'NONE', *, *, #241, .F. ) ;
#229 = FACE_OUTER_BOUND ( 'NONE', #330, .T. ) ;
#230 = CC_DESIGN_SECURITY_CLASSIFICATION ( #138, ( #223 ) ) ;
#231 = DIRECTION ( 'NONE',  ( 0.000000000000000000, 0.000000000000000000, 1.000000000000000000 ) ) ;
#232 = AXIS2_PLACEMENT_3D ( 'NONE', #144, #149, #49 ) ;
#233 = DIRECTION ( 'NONE',  ( -1.000000000000000000, 0.000000000000000000, -0.000000000000000000 ) ) ;
#234 = DIRECTION ( 'NONE',  ( 0.000000000000000000, 0.000000000000000000, -1.000000000000000000 ) ) ;
#235 = DATE_AND_TIME ( #84, #315 ) ;
#236 = CC_DESIGN_PERSON_AND_ORGANIZATION_ASSIGNMENT ( #28, #188, ( #18 ) ) ;
#237 = FACE_OUTER_BOUND ( 'NONE', #302, .T. ) ;
#238 = ORIENTED_EDGE ( 'NONE', *, *, #171, .T. ) ;
#239 = COORDINATED_UNIVERSAL_TIME_OFFSET ( 8, 0, .AHEAD. ) ;
#240 = AXIS2_PLACEMENT_3D ( 'NONE', #283, #334, #27 ) ;
#241 = EDGE_CURVE ( 'NONE', #299, #50, #246, .T. ) ;
#242 = EDGE_CURVE ( 'NONE', #327, #247, #155, .T. ) ;
#243 = DIRECTION ( 'NONE',  ( 1.000000000000000000, 0.000000000000000000, 0.000000000000000000 ) ) ;
#244 = FACE_OUTER_BOUND ( 'NONE', #206, .T. ) ;
#245 = LOCAL_TIME ( 9, 49, 14.00000000000000000, #4 ) ;
#246 = LINE ( 'NONE', #180, #251 ) ;
#247 = VERTEX_POINT ( 'NONE', #93 ) ;
#248 = AXIS2_PLACEMENT_3D ( 'NONE', #208, #326, #298 ) ;
#249 = CIRCLE ( 'NONE', #273, 6.349999999999999645 ) ;
#250 = VERTEX_POINT ( 'NONE', #123 ) ;
#251 = VECTOR ( 'NONE', #52, 1000.000000000000000 ) ;
#252 = ORIENTED_EDGE ( 'NONE', *, *, #191, .T. ) ;
#253 = CARTESIAN_POINT ( 'NONE',  ( -3.000000000000000000, 1.555301434917138433E-15, -12.69999999999999929 ) ) ;
#254 = VERTEX_POINT ( 'NONE', #253 ) ;
#255 = FACE_BOUND ( 'NONE', #35, .T. ) ;
#256 = DIRECTION ( 'NONE',  ( -1.000000000000000000, -0.000000000000000000, -0.000000000000000000 ) ) ;
#257 = COORDINATED_UNIVERSAL_TIME_OFFSET ( 8, 0, .AHEAD. ) ;
#258 = UNCERTAINTY_MEASURE_WITH_UNIT (LENGTH_MEASURE( 1.000000000000000082E-05 ), #172, 'distance_accuracy_value', 'NONE');
#259 = CARTESIAN_POINT ( 'NONE',  ( 3.000000000000000888, 0.000000000000000000, 0.000000000000000000 ) ) ;
#260 = CC_DESIGN_APPROVAL ( #310, ( #138 ) ) ;
#261 = DIRECTION ( 'NONE',  ( 0.000000000000000000, 0.000000000000000000, 1.000000000000000000 ) ) ;
#262 = SECURITY_CLASSIFICATION_LEVEL ( 'unclassified' ) ;
#263 = AXIS2_PLACEMENT_3D ( 'NONE', #278, #39, #101 ) ;
#264 = DIRECTION ( 'NONE',  ( 0.000000000000000000, 0.000000000000000000, 1.000000000000000000 ) ) ;
#265 = CARTESIAN_POINT ( 'NONE',  ( -3.000000000000000000, 6.349999999999999645, 0.000000000000000000 ) ) ;
#266 = CC_DESIGN_PERSON_AND_ORGANIZATION_ASSIGNMENT ( #196, #269, ( #74 ) ) ;
#267 = APPROVAL_PERSON_ORGANIZATION ( #313, #297, #66 ) ;
#268 = AXIS2_PLACEMENT_3D ( 'NONE', #211, #287, #81 ) ;
#269 = PERSON_AND_ORGANIZATION_ROLE ( 'design_owner' ) ;
#270 = DIRECTION ( 'NONE',  ( 0.000000000000000000, 0.000000000000000000, -1.000000000000000000 ) ) ;
#271 =( NAMED_UNIT ( * ) PLANE_ANGLE_UNIT ( ) SI_UNIT ( $, .RADIAN. ) );
#272 = CIRCLE ( 'NONE', #221, 12.69999999999999929 ) ;
#273 = AXIS2_PLACEMENT_3D ( 'NONE', #281, #53, #261 ) ;
#274 = ORIENTED_EDGE ( 'NONE', *, *, #191, .F. ) ;
#275 = ORIENTED_EDGE ( 'NONE', *, *, #157, .F. ) ;
#276 = DIRECTION ( 'NONE',  ( 0.000000000000000000, 0.000000000000000000, 1.000000000000000000 ) ) ;
#277 = ORIENTED_EDGE ( 'NONE', *, *, #48, .F. ) ;
#278 = CARTESIAN_POINT ( 'NONE',  ( -1.614212418857619014, 0.000000000000000000, 0.000000000000000000 ) ) ;
#279 = ORIENTED_EDGE ( 'NONE', *, *, #136, .T. ) ;
#280 = CARTESIAN_POINT ( 'NONE',  ( -1.614212418857619014, 0.000000000000000000, 12.69999999999999929 ) ) ;
#281 = CARTESIAN_POINT ( 'NONE',  ( 1.500000000000000888, 0.000000000000000000, 0.000000000000000000 ) ) ;
#282 = COORDINATED_UNIVERSAL_TIME_OFFSET ( 8, 0, .AHEAD. ) ;
#283 = CARTESIAN_POINT ( 'NONE',  ( -1.500000000000000444, 0.000000000000000000, 0.000000000000000000 ) ) ;
#284 = DATE_TIME_ROLE ( 'creation_date' ) ;
#285 = DESIGN_CONTEXT ( 'detailed design', #222, 'design' ) ;
#286 = EDGE_CURVE ( 'NONE', #41, #254, #128, .T. ) ;
#287 = DIRECTION ( 'NONE',  ( -1.000000000000000000, -0.000000000000000000, -0.000000000000000000 ) ) ;
#288 = PERSON_AND_ORGANIZATION_ROLE ( 'creator' ) ;
#289 = EDGE_CURVE ( 'NONE', #121, #254, #305, .T. ) ;
#290 = APPROVAL_ROLE ( '' ) ;
#291 = AXIS2_PLACEMENT_3D ( 'NONE', #106, #209, #79 ) ;
#292 = PERSON_AND_ORGANIZATION ( #92, #127 ) ;
#293 = AXIS2_PLACEMENT_3D ( 'NONE', #141, #68, #270 ) ;
#294 = MECHANICAL_CONTEXT ( 'NONE', #55, 'mechanical' ) ;
#295 = CLOSED_SHELL ( 'NONE', ( #162, #117, #306, #154, #332, #7, #88, #40, #218, #37 ) ) ;
#296 = DIRECTION ( 'NONE',  ( 0.000000000000000000, 0.000000000000000000, 1.000000000000000000 ) ) ;
#297 = APPROVAL ( #140, 'UNSPECIFIED' ) ;
#298 = DIRECTION ( 'NONE',  ( 0.000000000000000000, 0.000000000000000000, -1.000000000000000000 ) ) ;
#299 = VERTEX_POINT ( 'NONE', #161 ) ;
#300 = DIRECTION ( 'NONE',  ( -1.000000000000000000, -0.000000000000000000, -0.000000000000000000 ) ) ;
#301 = DIRECTION ( 'NONE',  ( -1.000000000000000000, -0.000000000000000000, -0.000000000000000000 ) ) ;
#302 = EDGE_LOOP ( 'NONE', ( #177, #274, #325, #71 ) ) ;
#303 = VERTEX_POINT ( 'NONE', #24 ) ;
#304 = FACE_OUTER_BOUND ( 'NONE', #103, .T. ) ;
#305 = LINE ( 'NONE', #96, #9 ) ;
#306 = ADVANCED_FACE ( 'NONE', ( #229 ), #129, .F. ) ;
#307 = CARTESIAN_POINT ( 'NONE',  ( -2.999999999999999556, 0.000000000000000000, 6.349999999999999645 ) ) ;
#308 = APPROVAL_STATUS ( 'not_yet_approved' ) ;
#309 = AXIS2_PLACEMENT_3D ( 'NONE', #175, #99, #207 ) ;
#310 = APPROVAL ( #57, 'UNSPECIFIED' ) ;
#311 = CALENDAR_DATE ( 2020, 24, 12 ) ;
#312 = AXIS2_PLACEMENT_3D ( 'NONE', #186, #168, #32 ) ;
#313 = PERSON_AND_ORGANIZATION ( #92, #127 ) ;
#314 = AXIS2_PLACEMENT_3D ( 'NONE', #163, #167, #264 ) ;
#315 = LOCAL_TIME ( 9, 49, 14.00000000000000000, #239 ) ;
#316 = APPROVAL_PERSON_ORGANIZATION ( #113, #310, #290 ) ;
#317 = EDGE_CURVE ( 'NONE', #303, #299, #105, .T. ) ;
#318 = APPLICATION_PROTOCOL_DEFINITION ( 'international standard', 'config_control_design', 1994, #55 ) ;
#319 = EDGE_LOOP ( 'NONE', ( #14, #17 ) ) ;
#320 = CARTESIAN_POINT ( 'NONE',  ( 3.000000000000000000, 0.000000000000000000, 12.69999999999999929 ) ) ;
#321 = DIRECTION ( 'NONE',  ( 0.000000000000000000, 0.000000000000000000, 1.000000000000000000 ) ) ;
#322 = ORIENTED_EDGE ( 'NONE', *, *, #72, .T. ) ;
#323 = CYLINDRICAL_SURFACE ( 'NONE', #232, 12.69999999999999929 ) ;
#324 = DIRECTION ( 'NONE',  ( -1.000000000000000000, -0.000000000000000000, -0.000000000000000000 ) ) ;
#325 = ORIENTED_EDGE ( 'NONE', *, *, #95, .T. ) ;
#326 = DIRECTION ( 'NONE',  ( 1.000000000000000000, 0.000000000000000000, 0.000000000000000000 ) ) ;
#327 = VERTEX_POINT ( 'NONE', #114 ) ;
#328 = CYLINDRICAL_SURFACE ( 'NONE', #263, 6.349999999999999645 ) ;
#329 = CC_DESIGN_PERSON_AND_ORGANIZATION_ASSIGNMENT ( #64, #288, ( #223 ) ) ;
#330 = EDGE_LOOP ( 'NONE', ( #47, #139, #181, #226 ) ) ;
#331 = FACE_OUTER_BOUND ( 'NONE', #225, .T. ) ;
#332 = ADVANCED_FACE ( 'NONE', ( #237 ), #143, .F. ) ;
#333 = CYLINDRICAL_SURFACE ( 'NONE', #291, 12.69999999999999929 ) ;
#334 = DIRECTION ( 'NONE',  ( 1.000000000000000000, 0.000000000000000000, 0.000000000000000000 ) ) ;
#335 = DATE_AND_TIME ( #185, #23 ) ;
ENDSEC;
END-ISO-10303-21;
